ISO-10303-21;
HEADER;
/* Generated by software containing ST-Developer
 * from STEP Tools, Inc. (www.steptools.com) 
 */

FILE_DESCRIPTION(
/* description */ (''),
/* implementation_level */ '2;1');

FILE_NAME(
/* name */ '\\\\SERVER1\\dwgs\\product\\Screws\\13627.stp',
/* time_stamp */ '2016-09-23T13:31:20-04:00',
/* author */ ('cridley'),
/* organization */ (''),
/* preprocessor_version */ 'ST-DEVELOPER v15.6',
/* originating_system */ 'Autodesk Inventor 2015',
/* authorisation */ '');

FILE_SCHEMA (('AUTOMOTIVE_DESIGN { 1 0 10303 214 3 1 1 }'));
ENDSEC;

DATA;
#10=MECHANICAL_DESIGN_GEOMETRIC_PRESENTATION_REPRESENTATION('',(#13),#385);
#11=SHAPE_REPRESENTATION_RELATIONSHIP('SRR','None',#397,#12);
#12=ADVANCED_BREP_SHAPE_REPRESENTATION($,(#14),#384);
#13=STYLED_ITEM('',(#406),#14);
#14=MANIFOLD_SOLID_BREP('Solid1',#210);
#15=CYLINDRICAL_SURFACE('',#224,0.156);
#16=(
BOUNDED_SURFACE()
B_SPLINE_SURFACE(2,2,((#325,#326,#327,#328,#329,#330,#331,#332,#333),(#334,
#335,#336,#337,#338,#339,#340,#341,#342),(#343,#344,#345,#346,#347,#348,
#349,#350,#351)),.UNSPECIFIED.,.F.,.T.,.F.)
B_SPLINE_SURFACE_WITH_KNOTS((3,3),(3,2,2,2,3),(-1.5707963267949,-0.682729650851305),
(-3.14159265358979,-1.5707963267949,0.,1.5707963267949,3.14159265358979),
 .UNSPECIFIED.)
GEOMETRIC_REPRESENTATION_ITEM()
RATIONAL_B_SPLINE_SURFACE(((1.,0.707106781186548,1.,0.707106781186548,1.,
0.707106781186548,1.,0.707106781186548,1.),(0.903026350903272,0.638536056313846,
0.903026350903272,0.638536056313846,0.903026350903272,0.638536056313846,
0.903026350903272,0.638536056313846,0.903026350903272),(1.,0.707106781186548,
1.,0.707106781186548,1.,0.707106781186548,1.,0.707106781186548,1.)))
REPRESENTATION_ITEM('')
SURFACE()
);
#17=LINE('',#313,#29);
#18=LINE('',#315,#30);
#19=LINE('',#316,#31);
#20=LINE('',#319,#32);
#21=LINE('',#320,#33);
#22=LINE('',#323,#34);
#23=LINE('',#324,#35);
#24=LINE('',#372,#36);
#25=LINE('',#373,#37);
#26=LINE('',#376,#38);
#27=LINE('',#377,#39);
#28=LINE('',#379,#40);
#29=VECTOR('',#239,0.182168783648703);
#30=VECTOR('',#240,0.0721687836487032);
#31=VECTOR('',#241,0.182168783648703);
#32=VECTOR('',#244,0.182168783648703);
#33=VECTOR('',#245,0.0721687836487032);
#34=VECTOR('',#248,0.182168783648703);
#35=VECTOR('',#249,0.0721687836487032);
#36=VECTOR('',#270,0.182168783648703);
#37=VECTOR('',#271,0.0721687836487032);
#38=VECTOR('',#274,0.182168783648703);
#39=VECTOR('',#275,0.0721687836487032);
#40=VECTOR('',#278,0.0721687836487032);
#41=PLANE('',#214);
#42=PLANE('',#215);
#43=PLANE('',#216);
#44=PLANE('',#225);
#45=PLANE('',#226);
#46=PLANE('',#227);
#47=PLANE('',#228);
#48=PLANE('',#229);
#49=PLANE('',#230);
#50=FACE_BOUND('',#75,.T.);
#51=FACE_BOUND('',#81,.T.);
#52=FACE_BOUND('',#83,.T.);
#53=FACE_BOUND('',#85,.T.);
#54=(
BOUNDED_CURVE()
B_SPLINE_CURVE(2,(#289,#290,#291),.UNSPECIFIED.,.F.,.F.)
B_SPLINE_CURVE_WITH_KNOTS((3,3),(0.0316371869741715,0.23717114622999),
 .UNSPECIFIED.)
CURVE()
GEOMETRIC_REPRESENTATION_ITEM()
RATIONAL_B_SPLINE_CURVE((1.05815168251408,1.22184831748592,1.05815168251408))
REPRESENTATION_ITEM('')
);
#55=(
BOUNDED_CURVE()
B_SPLINE_CURVE(2,(#293,#294,#295),.UNSPECIFIED.,.F.,.F.)
B_SPLINE_CURVE_WITH_KNOTS((3,3),(0.0316371869741718,0.237171146229991),
 .UNSPECIFIED.)
CURVE()
GEOMETRIC_REPRESENTATION_ITEM()
RATIONAL_B_SPLINE_CURVE((1.05815168251408,1.22184831748592,1.05815168251408))
REPRESENTATION_ITEM('')
);
#56=(
BOUNDED_CURVE()
B_SPLINE_CURVE(2,(#297,#298,#299),.UNSPECIFIED.,.F.,.F.)
B_SPLINE_CURVE_WITH_KNOTS((3,3),(0.0316371869741719,0.237171146229991),
 .UNSPECIFIED.)
CURVE()
GEOMETRIC_REPRESENTATION_ITEM()
RATIONAL_B_SPLINE_CURVE((1.05815168251408,1.22184831748592,1.05815168251408))
REPRESENTATION_ITEM('')
);
#57=(
BOUNDED_CURVE()
B_SPLINE_CURVE(2,(#301,#302,#303),.UNSPECIFIED.,.F.,.F.)
B_SPLINE_CURVE_WITH_KNOTS((3,3),(0.031637186974172,0.237171146229991),
 .UNSPECIFIED.)
CURVE()
GEOMETRIC_REPRESENTATION_ITEM()
RATIONAL_B_SPLINE_CURVE((1.05815168251408,1.22184831748592,1.05815168251408))
REPRESENTATION_ITEM('')
);
#58=(
BOUNDED_CURVE()
B_SPLINE_CURVE(2,(#305,#306,#307),.UNSPECIFIED.,.F.,.F.)
B_SPLINE_CURVE_WITH_KNOTS((3,3),(0.0316371869741717,0.237171146229991),
 .UNSPECIFIED.)
CURVE()
GEOMETRIC_REPRESENTATION_ITEM()
RATIONAL_B_SPLINE_CURVE((1.05815168251408,1.22184831748592,1.05815168251408))
REPRESENTATION_ITEM('')
);
#59=(
BOUNDED_CURVE()
B_SPLINE_CURVE(2,(#308,#309,#310),.UNSPECIFIED.,.F.,.F.)
B_SPLINE_CURVE_WITH_KNOTS((3,3),(0.0316371869741715,0.237171146229991),
 .UNSPECIFIED.)
CURVE()
GEOMETRIC_REPRESENTATION_ITEM()
RATIONAL_B_SPLINE_CURVE((1.05815168251408,1.22184831748592,1.05815168251408))
REPRESENTATION_ITEM('')
);
#60=(
BOUNDED_CURVE()
B_SPLINE_CURVE(2,(#357,#358,#359),.UNSPECIFIED.,.F.,.F.)
B_SPLINE_CURVE_WITH_KNOTS((3,3),(-1.5707963267949,-0.682729650851305),
 .UNSPECIFIED.)
CURVE()
GEOMETRIC_REPRESENTATION_ITEM()
RATIONAL_B_SPLINE_CURVE((1.,0.903026350903272,1.))
REPRESENTATION_ITEM('')
);
#61=FACE_OUTER_BOUND('',#74,.T.);
#62=FACE_OUTER_BOUND('',#76,.T.);
#63=FACE_OUTER_BOUND('',#77,.T.);
#64=FACE_OUTER_BOUND('',#78,.T.);
#65=FACE_OUTER_BOUND('',#79,.T.);
#66=FACE_OUTER_BOUND('',#80,.T.);
#67=FACE_OUTER_BOUND('',#82,.T.);
#68=FACE_OUTER_BOUND('',#84,.T.);
#69=FACE_OUTER_BOUND('',#86,.T.);
#70=FACE_OUTER_BOUND('',#87,.T.);
#71=FACE_OUTER_BOUND('',#88,.T.);
#72=FACE_OUTER_BOUND('',#89,.T.);
#73=FACE_OUTER_BOUND('',#90,.T.);
#74=EDGE_LOOP('',(#143));
#75=EDGE_LOOP('',(#144,#145,#146,#147,#148,#149));
#76=EDGE_LOOP('',(#150,#151,#152,#153));
#77=EDGE_LOOP('',(#154,#155,#156,#157));
#78=EDGE_LOOP('',(#158,#159,#160,#161));
#79=EDGE_LOOP('',(#162,#163,#164,#165,#166,#167));
#80=EDGE_LOOP('',(#168));
#81=EDGE_LOOP('',(#169));
#82=EDGE_LOOP('',(#170,#171));
#83=EDGE_LOOP('',(#172));
#84=EDGE_LOOP('',(#173));
#85=EDGE_LOOP('',(#174));
#86=EDGE_LOOP('',(#175,#176,#177,#178));
#87=EDGE_LOOP('',(#179,#180,#181,#182));
#88=EDGE_LOOP('',(#183,#184,#185,#186));
#89=EDGE_LOOP('',(#187,#188,#189,#190,#191,#192));
#90=EDGE_LOOP('',(#193,#194));
#91=CIRCLE('',#213,0.08);
#92=CIRCLE('',#217,0.028760036065313);
#93=CIRCLE('',#218,0.028760036065313);
#94=CIRCLE('',#219,0.156);
#95=CIRCLE('',#220,0.156);
#96=CIRCLE('',#222,0.126);
#97=CIRCLE('',#223,0.156);
#98=VERTEX_POINT('',#285);
#99=VERTEX_POINT('',#287);
#100=VERTEX_POINT('',#288);
#101=VERTEX_POINT('',#292);
#102=VERTEX_POINT('',#296);
#103=VERTEX_POINT('',#300);
#104=VERTEX_POINT('',#304);
#105=VERTEX_POINT('',#312);
#106=VERTEX_POINT('',#314);
#107=VERTEX_POINT('',#318);
#108=VERTEX_POINT('',#322);
#109=VERTEX_POINT('',#352);
#110=VERTEX_POINT('',#353);
#111=VERTEX_POINT('',#356);
#112=VERTEX_POINT('',#360);
#113=VERTEX_POINT('',#364);
#114=VERTEX_POINT('',#366);
#115=VERTEX_POINT('',#371);
#116=VERTEX_POINT('',#375);
#117=EDGE_CURVE('',#98,#98,#91,.T.);
#118=EDGE_CURVE('',#99,#100,#54,.T.);
#119=EDGE_CURVE('',#101,#99,#55,.T.);
#120=EDGE_CURVE('',#102,#101,#56,.T.);
#121=EDGE_CURVE('',#103,#102,#57,.T.);
#122=EDGE_CURVE('',#104,#103,#58,.T.);
#123=EDGE_CURVE('',#100,#104,#59,.T.);
#124=EDGE_CURVE('',#102,#105,#17,.T.);
#125=EDGE_CURVE('',#105,#106,#18,.T.);
#126=EDGE_CURVE('',#103,#106,#19,.T.);
#127=EDGE_CURVE('',#101,#107,#20,.T.);
#128=EDGE_CURVE('',#107,#105,#21,.T.);
#129=EDGE_CURVE('',#99,#108,#22,.T.);
#130=EDGE_CURVE('',#108,#107,#23,.T.);
#131=EDGE_CURVE('',#109,#110,#92,.T.);
#132=EDGE_CURVE('',#110,#109,#93,.T.);
#133=EDGE_CURVE('',#110,#111,#60,.T.);
#134=EDGE_CURVE('',#112,#111,#94,.T.);
#135=EDGE_CURVE('',#111,#112,#95,.T.);
#136=EDGE_CURVE('',#113,#113,#96,.T.);
#137=EDGE_CURVE('',#114,#114,#97,.T.);
#138=EDGE_CURVE('',#100,#115,#24,.T.);
#139=EDGE_CURVE('',#115,#108,#25,.T.);
#140=EDGE_CURVE('',#104,#116,#26,.T.);
#141=EDGE_CURVE('',#116,#115,#27,.T.);
#142=EDGE_CURVE('',#106,#116,#28,.T.);
#143=ORIENTED_EDGE('',*,*,#117,.F.);
#144=ORIENTED_EDGE('',*,*,#118,.F.);
#145=ORIENTED_EDGE('',*,*,#119,.F.);
#146=ORIENTED_EDGE('',*,*,#120,.F.);
#147=ORIENTED_EDGE('',*,*,#121,.F.);
#148=ORIENTED_EDGE('',*,*,#122,.F.);
#149=ORIENTED_EDGE('',*,*,#123,.F.);
#150=ORIENTED_EDGE('',*,*,#121,.T.);
#151=ORIENTED_EDGE('',*,*,#124,.T.);
#152=ORIENTED_EDGE('',*,*,#125,.T.);
#153=ORIENTED_EDGE('',*,*,#126,.F.);
#154=ORIENTED_EDGE('',*,*,#120,.T.);
#155=ORIENTED_EDGE('',*,*,#127,.T.);
#156=ORIENTED_EDGE('',*,*,#128,.T.);
#157=ORIENTED_EDGE('',*,*,#124,.F.);
#158=ORIENTED_EDGE('',*,*,#119,.T.);
#159=ORIENTED_EDGE('',*,*,#129,.T.);
#160=ORIENTED_EDGE('',*,*,#130,.T.);
#161=ORIENTED_EDGE('',*,*,#127,.F.);
#162=ORIENTED_EDGE('',*,*,#131,.F.);
#163=ORIENTED_EDGE('',*,*,#132,.F.);
#164=ORIENTED_EDGE('',*,*,#133,.T.);
#165=ORIENTED_EDGE('',*,*,#134,.F.);
#166=ORIENTED_EDGE('',*,*,#135,.F.);
#167=ORIENTED_EDGE('',*,*,#133,.F.);
#168=ORIENTED_EDGE('',*,*,#136,.T.);
#169=ORIENTED_EDGE('',*,*,#137,.T.);
#170=ORIENTED_EDGE('',*,*,#134,.T.);
#171=ORIENTED_EDGE('',*,*,#135,.T.);
#172=ORIENTED_EDGE('',*,*,#137,.F.);
#173=ORIENTED_EDGE('',*,*,#136,.F.);
#174=ORIENTED_EDGE('',*,*,#117,.T.);
#175=ORIENTED_EDGE('',*,*,#118,.T.);
#176=ORIENTED_EDGE('',*,*,#138,.T.);
#177=ORIENTED_EDGE('',*,*,#139,.T.);
#178=ORIENTED_EDGE('',*,*,#129,.F.);
#179=ORIENTED_EDGE('',*,*,#123,.T.);
#180=ORIENTED_EDGE('',*,*,#140,.T.);
#181=ORIENTED_EDGE('',*,*,#141,.T.);
#182=ORIENTED_EDGE('',*,*,#138,.F.);
#183=ORIENTED_EDGE('',*,*,#122,.T.);
#184=ORIENTED_EDGE('',*,*,#126,.T.);
#185=ORIENTED_EDGE('',*,*,#142,.T.);
#186=ORIENTED_EDGE('',*,*,#140,.F.);
#187=ORIENTED_EDGE('',*,*,#130,.F.);
#188=ORIENTED_EDGE('',*,*,#139,.F.);
#189=ORIENTED_EDGE('',*,*,#141,.F.);
#190=ORIENTED_EDGE('',*,*,#142,.F.);
#191=ORIENTED_EDGE('',*,*,#125,.F.);
#192=ORIENTED_EDGE('',*,*,#128,.F.);
#193=ORIENTED_EDGE('',*,*,#131,.T.);
#194=ORIENTED_EDGE('',*,*,#132,.T.);
#195=CONICAL_SURFACE('',#212,0.0625,45.);
#196=CONICAL_SURFACE('',#221,0.141,45.);
#197=ADVANCED_FACE('',(#61,#50),#195,.F.);
#198=ADVANCED_FACE('',(#62),#41,.F.);
#199=ADVANCED_FACE('',(#63),#42,.F.);
#200=ADVANCED_FACE('',(#64),#43,.F.);
#201=ADVANCED_FACE('',(#65),#16,.F.);
#202=ADVANCED_FACE('',(#66,#51),#196,.T.);
#203=ADVANCED_FACE('',(#67,#52),#15,.T.);
#204=ADVANCED_FACE('',(#68,#53),#44,.T.);
#205=ADVANCED_FACE('',(#69),#45,.F.);
#206=ADVANCED_FACE('',(#70),#46,.F.);
#207=ADVANCED_FACE('',(#71),#47,.F.);
#208=ADVANCED_FACE('',(#72),#48,.F.);
#209=ADVANCED_FACE('',(#73),#49,.F.);
#210=CLOSED_SHELL('',(#197,#198,#199,#200,#201,#202,#203,#204,#205,#206,
#207,#208,#209));
#211=AXIS2_PLACEMENT_3D('placement',#283,#231,#232);
#212=AXIS2_PLACEMENT_3D('',#284,#233,#234);
#213=AXIS2_PLACEMENT_3D('',#286,#235,#236);
#214=AXIS2_PLACEMENT_3D('',#311,#237,#238);
#215=AXIS2_PLACEMENT_3D('',#317,#242,#243);
#216=AXIS2_PLACEMENT_3D('',#321,#246,#247);
#217=AXIS2_PLACEMENT_3D('',#354,#250,#251);
#218=AXIS2_PLACEMENT_3D('',#355,#252,#253);
#219=AXIS2_PLACEMENT_3D('',#361,#254,#255);
#220=AXIS2_PLACEMENT_3D('',#362,#256,#257);
#221=AXIS2_PLACEMENT_3D('',#363,#258,#259);
#222=AXIS2_PLACEMENT_3D('',#365,#260,#261);
#223=AXIS2_PLACEMENT_3D('',#367,#262,#263);
#224=AXIS2_PLACEMENT_3D('',#368,#264,#265);
#225=AXIS2_PLACEMENT_3D('',#369,#266,#267);
#226=AXIS2_PLACEMENT_3D('',#370,#268,#269);
#227=AXIS2_PLACEMENT_3D('',#374,#272,#273);
#228=AXIS2_PLACEMENT_3D('',#378,#276,#277);
#229=AXIS2_PLACEMENT_3D('',#380,#279,#280);
#230=AXIS2_PLACEMENT_3D('',#381,#281,#282);
#231=DIRECTION('axis',(0.,0.,1.));
#232=DIRECTION('refdir',(1.,0.,0.));
#233=DIRECTION('center_axis',(0.,0.,1.));
#234=DIRECTION('ref_axis',(-1.,0.,0.));
#235=DIRECTION('center_axis',(0.,0.,-1.));
#236=DIRECTION('ref_axis',(-1.,0.,0.));
#237=DIRECTION('center_axis',(-1.,0.,0.));
#238=DIRECTION('ref_axis',(0.,1.,0.));
#239=DIRECTION('',(0.,0.,-1.));
#240=DIRECTION('',(0.,1.,0.));
#241=DIRECTION('',(0.,0.,-1.));
#242=DIRECTION('center_axis',(-0.5,-0.866025403784439,0.));
#243=DIRECTION('ref_axis',(-0.866025403784438,0.5,0.));
#244=DIRECTION('',(0.,0.,-1.));
#245=DIRECTION('',(-0.866025403784438,0.5,0.));
#246=DIRECTION('center_axis',(0.5,-0.866025403784439,0.));
#247=DIRECTION('ref_axis',(-0.866025403784439,-0.5,0.));
#248=DIRECTION('',(0.,0.,-1.));
#249=DIRECTION('',(-0.866025403784439,-0.5,0.));
#250=DIRECTION('center_axis',(0.,0.,-1.));
#251=DIRECTION('ref_axis',(1.,0.,0.));
#252=DIRECTION('center_axis',(0.,0.,-1.));
#253=DIRECTION('ref_axis',(1.,0.,0.));
#254=DIRECTION('center_axis',(0.,0.,1.));
#255=DIRECTION('ref_axis',(-1.,0.,0.));
#256=DIRECTION('center_axis',(0.,0.,1.));
#257=DIRECTION('ref_axis',(-1.,0.,0.));
#258=DIRECTION('center_axis',(0.,0.,-1.));
#259=DIRECTION('ref_axis',(-1.,0.,0.));
#260=DIRECTION('center_axis',(0.,0.,-1.));
#261=DIRECTION('ref_axis',(-1.,0.,0.));
#262=DIRECTION('center_axis',(0.,0.,1.));
#263=DIRECTION('ref_axis',(-1.,0.,0.));
#264=DIRECTION('center_axis',(0.,0.,-1.));
#265=DIRECTION('ref_axis',(-1.,0.,0.));
#266=DIRECTION('center_axis',(0.,0.,1.));
#267=DIRECTION('ref_axis',(1.,0.,0.));
#268=DIRECTION('center_axis',(1.,-3.02828769509223E-16,0.));
#269=DIRECTION('ref_axis',(-2.99621438770714E-16,-1.,0.));
#270=DIRECTION('',(0.,0.,-1.));
#271=DIRECTION('',(-3.02828769509223E-16,-1.,0.));
#272=DIRECTION('center_axis',(0.5,0.866025403784439,0.));
#273=DIRECTION('ref_axis',(0.866025403784439,-0.5,0.));
#274=DIRECTION('',(0.,0.,-1.));
#275=DIRECTION('',(0.866025403784439,-0.5,0.));
#276=DIRECTION('center_axis',(-0.5,0.866025403784439,0.));
#277=DIRECTION('ref_axis',(0.866025403784438,0.5,0.));
#278=DIRECTION('',(0.866025403784438,0.5,0.));
#279=DIRECTION('center_axis',(0.,0.,-1.));
#280=DIRECTION('ref_axis',(-1.,0.,0.));
#281=DIRECTION('center_axis',(0.,0.,1.));
#282=DIRECTION('ref_axis',(1.,0.,0.));
#283=CARTESIAN_POINT('',(0.,0.,0.));
#284=CARTESIAN_POINT('Origin',(0.,0.,-0.0175));
#285=CARTESIAN_POINT('',(0.08,-9.79717439317883E-18,0.));
#286=CARTESIAN_POINT('Origin',(0.,0.,0.));
#287=CARTESIAN_POINT('',(0.0625,-0.0360843918243516,-0.00783121635129672));
#288=CARTESIAN_POINT('',(0.0625000000000001,0.0360843918243516,-0.00783121635129673));
#289=CARTESIAN_POINT('Ctrl Pts',(0.0625,-0.0360843918243516,-0.00783121635129672));
#290=CARTESIAN_POINT('Ctrl Pts',(0.0625000000000001,-2.18547839493141E-17,
-0.0258734122634725));
#291=CARTESIAN_POINT('Ctrl Pts',(0.0625000000000001,0.0360843918243516,
-0.00783121635129673));
#292=CARTESIAN_POINT('',(4.08124379893302E-17,-0.0721687836487032,-0.00783121635129678));
#293=CARTESIAN_POINT('Ctrl Pts',(4.08124379893302E-17,-0.0721687836487032,
-0.00783121635129678));
#294=CARTESIAN_POINT('Ctrl Pts',(0.03125,-0.0541265877365274,-0.0258734122634726));
#295=CARTESIAN_POINT('Ctrl Pts',(0.0625,-0.0360843918243516,-0.00783121635129672));
#296=CARTESIAN_POINT('',(-0.0624999999999999,-0.0360843918243516,-0.00783121635129684));
#297=CARTESIAN_POINT('Ctrl Pts',(-0.0624999999999999,-0.0360843918243516,
-0.00783121635129684));
#298=CARTESIAN_POINT('Ctrl Pts',(-0.0312499999999999,-0.0541265877365274,
-0.0258734122634726));
#299=CARTESIAN_POINT('Ctrl Pts',(4.08124379893302E-17,-0.0721687836487032,
-0.00783121635129678));
#300=CARTESIAN_POINT('',(-0.0624999999999999,0.0360843918243516,-0.00783121635129684));
#301=CARTESIAN_POINT('Ctrl Pts',(-0.0624999999999999,0.0360843918243516,
-0.00783121635129684));
#302=CARTESIAN_POINT('Ctrl Pts',(-0.0624999999999999,-5.46369598732853E-18,
-0.0258734122634726));
#303=CARTESIAN_POINT('Ctrl Pts',(-0.0624999999999999,-0.0360843918243516,
-0.00783121635129684));
#304=CARTESIAN_POINT('',(2.90385354577118E-17,0.0721687836487032,-0.00783121635129679));
#305=CARTESIAN_POINT('Ctrl Pts',(2.90385354577118E-17,0.0721687836487032,
-0.00783121635129679));
#306=CARTESIAN_POINT('Ctrl Pts',(-0.0312499999999999,0.0541265877365274,
-0.0258734122634726));
#307=CARTESIAN_POINT('Ctrl Pts',(-0.0624999999999999,0.0360843918243516,
-0.00783121635129684));
#308=CARTESIAN_POINT('Ctrl Pts',(0.0625000000000001,0.0360843918243516,
-0.00783121635129673));
#309=CARTESIAN_POINT('Ctrl Pts',(0.03125,0.0541265877365274,-0.0258734122634726));
#310=CARTESIAN_POINT('Ctrl Pts',(2.90385354577118E-17,0.0721687836487032,
-0.00783121635129679));
#311=CARTESIAN_POINT('Origin',(-0.0624999999999999,-0.0360843918243516,
0.));
#312=CARTESIAN_POINT('',(-0.0624999999999999,-0.0360843918243516,-0.19));
#313=CARTESIAN_POINT('',(-0.0624999999999999,-0.0360843918243516,0.));
#314=CARTESIAN_POINT('',(-0.0624999999999999,0.0360843918243516,-0.19));
#315=CARTESIAN_POINT('',(-0.0624999999999999,-0.0360843918243516,-0.19));
#316=CARTESIAN_POINT('',(-0.0624999999999999,0.0360843918243516,0.));
#317=CARTESIAN_POINT('Origin',(4.08124379893302E-17,-0.0721687836487032,
0.));
#318=CARTESIAN_POINT('',(4.37095678986282E-17,-0.0721687836487032,-0.19));
#319=CARTESIAN_POINT('',(4.08124379893302E-17,-0.0721687836487032,0.));
#320=CARTESIAN_POINT('',(4.08124379893302E-17,-0.0721687836487032,-0.19));
#321=CARTESIAN_POINT('Origin',(0.0625,-0.0360843918243516,0.));
#322=CARTESIAN_POINT('',(0.0625,-0.0360843918243516,-0.19));
#323=CARTESIAN_POINT('',(0.0625,-0.0360843918243516,0.));
#324=CARTESIAN_POINT('',(0.0625,-0.0360843918243516,-0.19));
#325=CARTESIAN_POINT('Ctrl Pts',(-0.028760036065313,0.,-0.469));
#326=CARTESIAN_POINT('Ctrl Pts',(-0.028760036065313,-0.028760036065313,
-0.469));
#327=CARTESIAN_POINT('Ctrl Pts',(0.,-0.028760036065313,-0.469));
#328=CARTESIAN_POINT('Ctrl Pts',(0.028760036065313,-0.028760036065313,-0.469));
#329=CARTESIAN_POINT('Ctrl Pts',(0.028760036065313,0.,-0.469));
#330=CARTESIAN_POINT('Ctrl Pts',(0.028760036065313,0.028760036065313,-0.469));
#331=CARTESIAN_POINT('Ctrl Pts',(0.,0.028760036065313,-0.469));
#332=CARTESIAN_POINT('Ctrl Pts',(-0.028760036065313,0.028760036065313,-0.469));
#333=CARTESIAN_POINT('Ctrl Pts',(-0.028760036065313,0.,-0.469));
#334=CARTESIAN_POINT('Ctrl Pts',(-0.106777655536795,0.,-0.469));
#335=CARTESIAN_POINT('Ctrl Pts',(-0.106777655536795,-0.106777655536795,
-0.469));
#336=CARTESIAN_POINT('Ctrl Pts',(0.,-0.106777655536795,-0.469));
#337=CARTESIAN_POINT('Ctrl Pts',(0.106777655536795,-0.106777655536795,-0.469));
#338=CARTESIAN_POINT('Ctrl Pts',(0.106777655536795,0.,-0.469));
#339=CARTESIAN_POINT('Ctrl Pts',(0.106777655536795,0.106777655536795,-0.469));
#340=CARTESIAN_POINT('Ctrl Pts',(0.,0.106777655536795,-0.469));
#341=CARTESIAN_POINT('Ctrl Pts',(-0.106777655536795,0.106777655536795,-0.469));
#342=CARTESIAN_POINT('Ctrl Pts',(-0.106777655536795,0.,-0.469));
#343=CARTESIAN_POINT('Ctrl Pts',(-0.156,0.,-0.408469761659625));
#344=CARTESIAN_POINT('Ctrl Pts',(-0.156,-0.156,-0.408469761659625));
#345=CARTESIAN_POINT('Ctrl Pts',(0.,-0.156,-0.408469761659625));
#346=CARTESIAN_POINT('Ctrl Pts',(0.156,-0.156,-0.408469761659625));
#347=CARTESIAN_POINT('Ctrl Pts',(0.156,0.,-0.408469761659625));
#348=CARTESIAN_POINT('Ctrl Pts',(0.156,0.156,-0.408469761659625));
#349=CARTESIAN_POINT('Ctrl Pts',(0.,0.156,-0.408469761659625));
#350=CARTESIAN_POINT('Ctrl Pts',(-0.156,0.156,-0.408469761659625));
#351=CARTESIAN_POINT('Ctrl Pts',(-0.156,0.,-0.408469761659625));
#352=CARTESIAN_POINT('',(0.,0.028760036065313,-0.469));
#353=CARTESIAN_POINT('',(-0.028760036065313,0.,-0.469));
#354=CARTESIAN_POINT('Origin',(0.,0.,-0.469));
#355=CARTESIAN_POINT('Origin',(0.,0.,-0.469));
#356=CARTESIAN_POINT('',(-0.156,0.,-0.408469761659625));
#357=CARTESIAN_POINT('Ctrl Pts',(-0.028760036065313,0.,-0.469));
#358=CARTESIAN_POINT('Ctrl Pts',(-0.106777655536795,0.,-0.469));
#359=CARTESIAN_POINT('Ctrl Pts',(-0.156,0.,-0.408469761659625));
#360=CARTESIAN_POINT('',(0.156,1.91044900666987E-17,-0.408469761659625));
#361=CARTESIAN_POINT('Origin',(0.,0.,-0.408469761659625));
#362=CARTESIAN_POINT('Origin',(0.,0.,-0.408469761659625));
#363=CARTESIAN_POINT('Origin',(0.,0.,-0.015));
#364=CARTESIAN_POINT('',(0.126,-1.54305496692566E-17,0.));
#365=CARTESIAN_POINT('Origin',(0.,0.,0.));
#366=CARTESIAN_POINT('',(0.156,1.91044900666987E-17,-0.03));
#367=CARTESIAN_POINT('Origin',(0.,0.,-0.03));
#368=CARTESIAN_POINT('Origin',(0.,0.,0.));
#369=CARTESIAN_POINT('Origin',(-1.59204083889156E-18,0.,0.));
#370=CARTESIAN_POINT('Origin',(0.0625000000000001,0.0360843918243516,0.));
#371=CARTESIAN_POINT('',(0.0625000000000001,0.0360843918243516,-0.19));
#372=CARTESIAN_POINT('',(0.0625000000000001,0.0360843918243516,0.));
#373=CARTESIAN_POINT('',(0.0625000000000001,0.0360843918243516,-0.19));
#374=CARTESIAN_POINT('Origin',(2.90385354577118E-17,0.0721687836487032,
0.));
#375=CARTESIAN_POINT('',(3.27821759239712E-17,0.0721687836487032,-0.19));
#376=CARTESIAN_POINT('',(2.90385354577118E-17,0.0721687836487032,0.));
#377=CARTESIAN_POINT('',(2.90385354577118E-17,0.0721687836487032,-0.19));
#378=CARTESIAN_POINT('Origin',(-0.0624999999999999,0.0360843918243516,0.));
#379=CARTESIAN_POINT('',(-0.0624999999999999,0.0360843918243516,-0.19));
#380=CARTESIAN_POINT('Origin',(6.55643518479423E-17,-5.46369598732853E-18,
-0.19));
#381=CARTESIAN_POINT('Origin',(-1.59204083889156E-18,0.,-0.469));
#382=UNCERTAINTY_MEASURE_WITH_UNIT(LENGTH_MEASURE(0.000393700787401575),
#386,'DISTANCE_ACCURACY_VALUE',
'Maximum model space distance between geometric entities at asserted c
onnectivities');
#383=UNCERTAINTY_MEASURE_WITH_UNIT(LENGTH_MEASURE(1.E-6),#387,
'DISTANCE_ACCURACY_VALUE',
'Maximum model space distance between geometric entities at asserted c
onnectivities');
#384=(
GEOMETRIC_REPRESENTATION_CONTEXT(3)
GLOBAL_UNCERTAINTY_ASSIGNED_CONTEXT((#382))
GLOBAL_UNIT_ASSIGNED_CONTEXT((#386,#392,#389))
REPRESENTATION_CONTEXT('','3D')
);
#385=(
GEOMETRIC_REPRESENTATION_CONTEXT(3)
GLOBAL_UNCERTAINTY_ASSIGNED_CONTEXT((#383))
GLOBAL_UNIT_ASSIGNED_CONTEXT((#387,#392,#389))
REPRESENTATION_CONTEXT('','3D')
);
#386=(
CONVERSION_BASED_UNIT('__CONSTANT UNIT inch',#388)
LENGTH_UNIT()
NAMED_UNIT(#391)
);
#387=(
LENGTH_UNIT()
NAMED_UNIT(*)
SI_UNIT(.MILLI.,.METRE.)
);
#388=LENGTH_MEASURE_WITH_UNIT(LENGTH_MEASURE(25.4),#387);
#389=(
NAMED_UNIT(*)
SI_UNIT($,.STERADIAN.)
SOLID_ANGLE_UNIT()
);
#390=DIMENSIONAL_EXPONENTS(0.,0.,0.,0.,0.,0.,0.);
#391=DIMENSIONAL_EXPONENTS(1.,0.,0.,0.,0.,0.,0.);
#392=(
CONVERSION_BASED_UNIT('degree',#394)
NAMED_UNIT(#390)
PLANE_ANGLE_UNIT()
);
#393=(
NAMED_UNIT(*)
PLANE_ANGLE_UNIT()
SI_UNIT($,.RADIAN.)
);
#394=PLANE_ANGLE_MEASURE_WITH_UNIT(PLANE_ANGLE_MEASURE(0.01745329252),#393);
#395=SHAPE_DEFINITION_REPRESENTATION(#396,#397);
#396=PRODUCT_DEFINITION_SHAPE('',$,#399);
#397=SHAPE_REPRESENTATION('',(#211),#384);
#398=PRODUCT_DEFINITION_CONTEXT('part definition',#403,'design');
#399=PRODUCT_DEFINITION('13627','13627',#400,#398);
#400=PRODUCT_DEFINITION_FORMATION('',$,#405);
#401=PRODUCT_RELATED_PRODUCT_CATEGORY('13627','13627',(#405));
#402=APPLICATION_PROTOCOL_DEFINITION('international standard',
'automotive_design',2009,#403);
#403=APPLICATION_CONTEXT(
'Core Data for Automotive Mechanical Design Process');
#404=PRODUCT_CONTEXT('part definition',#403,'mechanical');
#405=PRODUCT('13627','13627',$,(#404));
#406=PRESENTATION_STYLE_ASSIGNMENT((#407));
#407=SURFACE_STYLE_USAGE(.BOTH.,#408);
#408=SURFACE_SIDE_STYLE($,(#409));
#409=SURFACE_STYLE_FILL_AREA(#410);
#410=FILL_AREA_STYLE($,(#411));
#411=FILL_AREA_STYLE_COLOUR($,#412);
#412=COLOUR_RGB('',0.749019607843137,0.749019607843137,0.749019607843137);
ENDSEC;
END-ISO-10303-21;
